Arpeggios geplakt Autumn Leaves

(/) Slide Up  (\) Slide Down  (h) Hammer On  (p) Pull Off  (b) Bend (r) Release (v) Vibrato
E|------------------------------------------------------------2--3/8--7--3-------------------------
B|--------------------5--8--8/7----------------------------3----------------5-----5----------------
G|-----------------5-------------7--5-------------------4----------------------5-----4--2----------
D|-----------5--7----------------------7--4-------4--5-------------------------------------4--2/7--
A|--------7----------------------------------5-----------------------------------------------------
E|--5--8-------------------------------------------------------------------------------------------



E|----------------------
B|--------7--10p7-------
G|-----8-----------8/9--
D|--9-------------------
A|----------------------
E|----------------------



E|---------------------------------5-------------------------------------------
B|-----------------5------------5-----5----------------------------------------
G|--------------5------------5-----------5----------------------------------4--
D|-----------5--------5/4-------------------4----5--4-----------------2--5-----
A|--------7--------------------------------------------5--2-----2--3-----------
E|--5--8-----------------------------------------------------3-----------------



E|-----------------------
B|-----------------------
G|--5--4--2--------------
D|-----------4--2--1--2--
A|-----------------------
E|-----------------------



http://www.guitartabcreator.com
Guitar Tab Creator is intended to store guitar tab created through the tool. It currently does not support in-line text editing. Any text you place in here will be lost. If you need to comment on your tab, please use the "Tab Notes" section located below.