Arpeggios Blue Bossa III

(/) Slide Up  (\) Slide Down  (h) Hammer On  (p) Pull Off  (b) Bend (r) Release (v) Vibrato

E|--------------------3--6--8/---
B|-----------------4----------1--
G|-----------3--5----------------
D|--------5----------------------
A|--3--6-------------------------
E|-------------------------------



E|-----------------4-----------
B|-----------4--6-----1--4--6--
G|--------5--------------------
D|--3--6-----------------------
A|-----------------------------
E|-----------------------------



E|--------------------4--------
B|--------------3--6-----1--3--
G|-----------5-----------------
D|-----3--6--------------------
A|--5--------------------------
E|-----------------------------



E|--------------------------3--
B|-----------------------3-----
G|-----------------1--4--------
D|-----------3--5--------------
A|-----2--5--------------------
E|--3--------------------------



E|-----------------2--6-----
B|-----------2--4--------4--
G|--------3-----------------
D|--1--4--------------------
A|--------------------------
E|--------------------------



E|--------------------------4--
B|--------------------4--7-----
G|-----------------5-----------
D|-----------4--6--------------
A|-----3--6--------------------
E|--4--------------------------



E|-----------------2--5-----
B|-----------2--3--------2--
G|--------2-----------------
D|-----4--------------------
A|--5-----------------------
E|--------------------------
http://www.guitartabcreator.com
Guitar Tab Creator is intended to store guitar tab created through the tool. It currently does not support in-line text editing. Any text you place in here will be lost. If you need to comment on your tab, please use the "Tab Notes" section located below.