Arpeggios Blue Bossa

(/) Slide Up  (\) Slide Down  (h) Hammer On  (p) Pull Off  (b) Bend (r) Release (v) Vibrato
E|------------------------------8--
B|-----------------------8--11-----
G|--------------------8------------
D|-------------8--10---------------
A|---------10----------------------
E|--8--11--------------------------



E|-----------------------8--13--
B|--------------------9---------
G|-------------8--10------------
D|---------10-------------------
A|--8--11-----------------------
E|------------------------------



E|--------------------4--8--10--
B|-----------------6------------
G|-----------5--7---------------
D|--------6---------------------
A|--5--8------------------------
E|------------------------------



E|--------------------3--
B|-----------------------
G|--------------1--4-----
D|-----------3-----------
A|-----2--5--------------
E|--3--------------------



E|-----------------------9--11--
B|-----------------7--9---------
G|-----------6--8---------------
D|--------8---------------------
A|--6--9------------------------
E|------------------------------



E|--------------------------4--
B|--------------------4--7-----
G|-----------------5-----------
D|-----------4--6--------------
A|-----3--6--------------------
E|--4--------------------------



E|--------------------5--9--10--
B|-----------------7------------
G|-----------6--7---------------
D|-----4--7---------------------
A|--5---------------------------
E|------------------------------
http://www.guitartabcreator.com
Guitar Tab Creator is intended to store guitar tab created through the tool. It currently does not support in-line text editing. Any text you place in here will be lost. If you need to comment on your tab, please use the "Tab Notes" section located below.