Arpeggios Autumn Leaves

(/) Slide Up  (\) Slide Down  (h) Hammer On  (p) Pull Off  (b) Bend (r) Release (v) Vibrato
E|--------------------------5-----
B|--------------------5--8--------
G|-----------------5--------------
D|-----------5--7-----------------
A|--------7-----------------------
E|--5--8--------------------------



E|--------------------5--8--
B|-----------------7--------
G|-----------5--7-----------
D|-----4--7-----------------
A|--5-----------------------
E|--------------------------



E|-----------------------2--3--
B|--------------------3--------
G|-----------------4-----------
D|-----------4--5--------------
A|-----2--5--------------------
E|--3--------------------------



E|--------------------3--7--8--
B|-----------------5-----------
G|-----------4--5--------------
D|-----2--5--------------------
A|--3--------------------------
E|-----------------------------



E|--------------------------2--
B|-----------------------5-----
G|-----------------2--4--------
D|-----------2--4--------------
A|--------2--------------------
E|--2--5-----------------------



E|---------------------------7--
B|--------------------7--10-----
G|-----------------8------------
D|-----------7--9---------------
A|-----6--9---------------------
E|--7---------------------------



E|---------------------7--10--
B|------------------8---------
G|------------7--9------------
D|---------9------------------
A|--7--10---------------------
E|----------------------------



E|---------------------------7--
B|--------------------7--10-----
G|-----------------8------------
D|-----------7--9---------------
A|-----6--9---------------------
E|--7---------------------------


http://www.guitartabcreator.com
Guitar Tab Creator is intended to store guitar tab created through the tool. It currently does not support in-line text editing. Any text you place in here will be lost. If you need to comment on your tab, please use the "Tab Notes" section located below.