Hos dig är jag underbar

(/) Slide Up  (\) Slide Down  (h) Hammer On  (p) Pull Off  (b) Bend (r) Release (v) Vibrato


E|-----2-------------|-------5----------------|-----------------------------|--------------------|--
B|--3-----3-----3/5--|----------5-------------|-----------5--5--7--5-----5--|--5--5--7--5-----5--|--
G|--4--------4-------|--4/6--------7--6--2/4--|--------4--------------7-----|--------------7-----|--
D|--4----------------|------------------------|-----5-----------------------|--------------------|--
A|--2----------------|------------------------|--5--------------------------|--------------------|--
E|-------------------|------------------------|-----------------------------|--------------------|--



E|--------------|--------------|--
B|--7--7--7--7--|--2--2-----3--|--
G|--7--7--9--7--|--------4-----|--
D|--7--7--7--7--|--------------|--
A|--------------|--------------|--
E|--------------|--------------|--



E|--------------------|----------------------|-----------|-----------------------------|-----
B|--5--5--7--5-----5--|--5--7--5-----5-------|-----7--5--|--b5r5----b7r7--5\3--5p3-----|-----
G|--------------7-----|-----------7-----7\4--|--4--------|--------------------------4--|-----
D|--------------------|----------------------|-----------|-----------------------------|-----
A|--------------------|----------------------|-----------|-----------------------------|-----
E|--------------------|----------------------|-----------|-----------------------------|-----



E|----------------------|-----------|--
B|----------3-----3-----|-----------|--
G|----------------------|-----------|--
D|--2--4\5-----4-----2--|-----------|--
A|----------------------|--2--0-----|--
E|----------------------|--------3--|--
http://www.guitartabcreator.com
Guitar Tab Creator is intended to store guitar tab created through the tool. It currently does not support in-line text editing. Any text you place in here will be lost. If you need to comment on your tab, please use the "Tab Notes" section located below.