TSM IDEA #1

(/) Slide Up  (\) Slide Down  (h) Hammer On  (p) Pull Off  (b) Bend (r) Release (v) Vibrato

E|--2--------2-----0--------0-----2--------0-----2--------2-----|--
B|--------0-----0--------0-----0--------0-----0--------0-----0--|--
G|-----0--------------0--------------0--------------0-----------|--
D|--2--------------2--------------0--------------0--------------|--
A|--------------------------------------------------------------|--
E|--------------------------------------------------------------|--



E|--7--------7-----8--------8-----5--------5-----0--------0-------
B|--------5-----5--------5-----5--------3-----3--------0-----0----
G|-----5--------------7--------------4--------------0-------------
D|--7-----------------------------5--------------2----------------
A|-----------------8----------------------------------------------
E|----------------------------------------------------------------
http://www.guitartabcreator.com
Guitar Tab Creator is intended to store guitar tab created through the tool. It currently does not support in-line text editing. Any text you place in here will be lost. If you need to comment on your tab, please use the "Tab Notes" section located below.