MIDDLE 8 of IDEA #1

(/) Slide Up  (\) Slide Down  (h) Hammer On  (p) Pull Off  (b) Bend (r) Release (v) Vibrato


E|--3--------3-----2--------2-----0--------0-----3--------3-----2--------2-----0--------0--------
B|--------0-----0--------0-----0--------0-----0--------0-----0--------0-----0--------0-----0-----
G|-----0--------------0-----------0--0--------------0--------------0--------------0--------------
D|--2--------------2--------------2--------------0--------------0--------------0-----------------
A|-----------------------------------------------------------------------------------------------
E|-----------------------------------------------------------------------------------------------



E|--5--------5-----7--------7-----8--------8-----7--------7-----
B|--------0-----0--------0-----0--------5-----5--------5-----5--
G|-----0--------------0--------------5--------------5-----------
D|--3--------------5--------------7--------------5--------------
A|--------------------------------------------------------------
E|--------------------------------------------------------------
http://www.guitartabcreator.com
Guitar Tab Creator is intended to store guitar tab created through the tool. It currently does not support in-line text editing. Any text you place in here will be lost. If you need to comment on your tab, please use the "Tab Notes" section located below.