Solo Gros Zéro

(/) Slide Up  (\) Slide Down  (h) Hammer On  (p) Pull Off  (b) Bend (r) Release (v) Vibrato


E|----------------------|-----------------|-------------------|----------------------------------|--
B|--13-13--15--13-13----|--6-6--8--6-6----|----------------6--|--8p5-----5-----------------------|--
G|--13h14--15--13h14----|--6h7--8--6h7----|----------5--7-----|-------7-----7p5--7p5-----5-------|--
D|----------------------|-----------------|--3--5/7-----------|-----------------------7-----7p5--|--
A|----------------------|-----------------|-------------------|----------------------------------|--
E|----------------------|-----------------|-------------------|----------------------------------|--



E|---------------------|---------18---------15---------13--------10--|-----
B|---------------------|--13/15------15\13------13\11------11\8------|-----
G|---------------------|---------------------------------------------|-----
D|---------------------|---------------------------------------------|-----
A|--7/8----------------|---------------------------------------------|-----
E|---------------------|---------------------------------------------|-----



E|-------8-------6-------5-------3--|--5--------------------------------|--
B|----------------------------------|-----------------------------------|--
G|--7/9-----9\7-----7\5-----5\3-----|--5--------------------------------|--
D|----------------------------------|-----------------------------------|--
A|----------------------------------|-----------------------------------|--
E|----------------------------------|-----------------------------------|--
http://www.guitartabcreator.com
Guitar Tab Creator is intended to store guitar tab created through the tool. It currently does not support in-line text editing. Any text you place in here will be lost. If you need to comment on your tab, please use the "Tab Notes" section located below.