By Your Side

E|-------------------------------- ------------------------------- --------------------------
B|-----3---0---3-------3---0---3-0 ----0---0---0-------0---0---0-- --------0-----------------
G|-0-0---0---0---0-0-0---0---0---- ------------------------------- --0-2-0---0-2-0---0-2-0---
D|-------------------------------- 3-3---3---3---3-3-3---3---3---3 0---------------0---------
A|-------------------------------- ------------------------------- --------------------------
E|-------------------------------- ------------------------------- --------------------------



E|-------- --------------------------------
B|-0------ --------0---------------0-------
G|---0-2-0 --0-0-0---0-2-0---0-0-0---0-2-0-
D|-------- --------------------------------
A|-------- 3---------------3---------------
E|-------- --------------------------------
Guitar Tab Creator is intended to store guitar tab created through the tool. It currently does not support in-line text editing. Any text you place in here will be lost. If you need to comment on your tab, please use the "Tab Notes" section located below.