pirates of the carribean Sungha Jung

E|-------------------------------------------------------------------------------------!-------0
B|------------------------------------------------------------------------------------1!-3-3-3--
G|----------------------------------------------------------------------------------2--!-------
D|--0--0-0-0-0-0--0-0-0-0-0--0-0-0-0-0--0-0-0-0-0--0-0-0-0-0--0-0-0-0-0--0-0-0-0-00----!-0-0-0-
A|-------------------------------------------------------------------------------------!-----
E|-------------------------------------------------------------------------------------!-----

E|1-1-1-3--0-0--------------------0-1-1-1-3-0-0---------------------1--3-3-3-5-6-6-5-3-5-----0-
B|-------------3-1-1-3----1-3-3-3---------------3-1-1-3-----1-3-3-3----------------------3-3---
G|-----------------------2--------------------------------2------------------------------------
D|-------------0---0---0----0-0-0---------------0---0---0-----0-0-0----------------0-0-0-0-0-0-
A|1-1-1----3-3------------------------------3-3--------------------------------0-0-------------
E|----------------------------------3-3-3------------------------------5-5-5-----------------

E|1-1-3-5-----1!-0-0-1---0----- ! -0-0---------0
B|--------3-3--!-------3------1 ! -----3-1-3-3--
G|-------------!------------2-- X 2 ! 2nd time --------------
D|-------------!--------------- ! ---------0-0--
A|1-1-1--------!-0-0-0---0----- ! -0-0-0-0-----3
E|------0---0--!--------------- ! --------------


E|1-1-3--5--------6------------------
B|3-3-3--2-5-2----3-6-3----2-2-3-2---
G|3-3-3--2-----2--3-----3--2-2-3-2---
D|-------2-----2--3-----3--2-2-3-2--- NEXT BIT
A|-------------------------0-0-0-0---
E|-----------------------------------

E|----------0--1---3-5-3-1-0-1-3-5-3---1-3-5---3-1-0-1-0-----0----------0--1---0-1-3-1-3-5-3-1--
B|--------3--------------------------------------------2-3-----1-3----3------------------------3
G|---------------2---------------------0-------------------2-----------------2-----------------3
D|5-3-2-0------0---------0-----------2-------0-----------0----------0------0---------0---0-----3
A|5-3-2-0--------------3-----------3---------------0-------------------------------3-----------1
E|5-3-2-0--------------------3-------------0---------------------0------------------------------

E|--0-1-3-5-6---3-1---3-0-----0----------------
B|3-----------3-----------3-----1--------------
G|------------0-----2-------2------------------
D|----------------0---------------------------- NEXT BIT
A|----1-------------------------0--------------
E|----------5-------------0--------------------
Guitar Tab Creator is intended to store guitar tab created through the tool. It currently does not support in-line text editing. Any text you place in here will be lost. If you need to comment on your tab, please use the "Tab Notes" section located below.