murderers

(/) Slide Up  (\) Slide Down  (h) Hammer On  (p) Pull Off  (b) Bend (r) Release (v) Vibrato

(W|WW) Whole (H|HH) Half (Q|QQ) Quarter (E|EE) 8th (S|SS) 16th (T|TT) 32nd (X|XX) 64th

t: none none none none none none none none none none none none none none none none none none none none none none none none none none none none none none
E|--7--4--5--5--7--9--7--4--5--5--7--4--5--5--7--9--7--4--5--5--7--4--5--5--7--9--7--4--5--5--
B|--------------------------------------------------------------------------------------------
G|--------------------------------------------------------------------------------------------
D|--------------------------------------------------------------------------------------------
A|--------------------------------------------------------------------------------------------
E|--------------------------------------------------------------------------------------------


t: none none none none
E|--------------
B|--7--9--7--6--
G|--------------
D|--------------
A|--------------
E|--------------


t: none none none none none none none none none none none none none none none none none none none none none none
E|-----------------5--5--5--5--5--5-----------------5--5--5--5--5--5--
B|--7--7--7--9--7--------------------7--7--7--9--7--------------------
G|--------------------------------------------------------------------
D|--------------------------------------------------------------------
A|--------------------------------------------------------------------
E|--------------------------------------------------------------------
http://www.guitartabcreator.com
Guitar Tab Creator is intended to store guitar tab created through the tool. It currently does not support in-line text editing. Any text you place in here will be lost. If you need to comment on your tab, please use the "Tab Notes" section located below.