Project One

(/) Slide Up  (\) Slide Down  (h) Hammer On  (p) Pull Off  (b) Bend (r) Release (v) Vibrato
E|--------------------------------------------------------------------------------------------------
B|-----------8--------8--------8-----------------7--------7--------7-----------------5--------5-----
G|-----------0--------0--------0-----------------0--------0--------0-----------------0--------0-----
D|-----0--------0--------0--------0--------0--------0--------0--------0--------0--------0-----------
A|--7-----7--------7--------7--------7--5-----5--------5--------5--------5--3-----3--------3--------
E|--------------------------------------------------------------------------------------------------



E|--------------------------------------------------------
B|--------5-----------------3--------3-----------3--------
G|--------0-----------------0--------0-----------0--------
D|--0--------0--------0--------0-----------0--------0-----
A|-----3--------3--2-----2--------2-----0-----0--------0--
E|--------------------------------------------------------



E|--------------------------------------------------------------------------
B|-----------8--------8-----------3--------3-----------0--------0--------1--
G|-----------0--------0-----------0--------0-----------0--------0--------0--
D|-----0--------0-----------0--------0-----------0--------0--------0--------
A|--7-----7--------7-----2-----2--------2-----------------------------------
E|--------------------------------------------3-----3--------3--------3-----
http://www.guitartabcreator.com
Guitar Tab Creator is intended to store guitar tab created through the tool. It currently does not support in-line text editing. Any text you place in here will be lost. If you need to comment on your tab, please use the "Tab Notes" section located below.