Rome Nothing Else Matters

(/) Slide Up  (\) Slide Down  (h) Hammer On  (p) Pull Off  (b) Bend (r) Release (v) Vibrato
E|----------------------------------------------------------------------------------------------
B|------------------------------------------------------0------------------------12-------------
G|---------------------------------------------------------14------------------------14---------
D|-------------------------------------------------------------14----------14------------14-----
A|------12----------12----------12----------12-------------------------13-----------------------
E|--12----------14----------15----------17-------------------------12---------------------------



E|--------------
B|--------------
G|--------------
D|----------14--
A|------13------
E|--12----------
http://www.guitartabcreator.com
Guitar Tab Creator is intended to store guitar tab created through the tool. It currently does not support in-line text editing. Any text you place in here will be lost. If you need to comment on your tab, please use the "Tab Notes" section located below.