Sunset2 in D Tuning

(/) Slide Up  (\) Slide Down  (h) Hammer On  (p) Pull Off  (b) Bend (r) Release (v) Vibrato
E|---0-2-----0---------|---0-2-3-5-2---0---|-7------10-7---5-------|---------------------|-
B|-3---3-3-2-----0-----|-3---3-5-7-3-3---2-|---8-10----8-8-7-----0-|-2h3-----------2h3-3-|-
G|---------------0---2-|-------------0---0-|-----11--------6-6/7-0-|-----2-------------2-|-
D|-----0---------0---4-|-------------2---2-|---------------0-----0-|-----4-4-2p0-------0-|-
A|-----0-------------0-|-------------0---0-|---------------0-------|-----0-------0-----0-|-
E|-----0-------5---0---|-------------------|---------------0-----5-|-----0-------------0-|-



E|-----------5---7-10-5-|-2h3p2p0-----------|---------0-2-3-0-0-|-7-5-3-2-3-5-2---|---------
B|-2-3/5-7-7---7-8----7-|---------3p2-3-----|-----2h3---------2-|-7-------------3-|---------
G|-------7--------------|-------------2---0-|-2h4-------------0-|-7---------------|---------
D|----------------------|-------------4-4---|-----------------2-|-7---------------|---------
A|----------------------|-------------0-----|-------------------|-----------------|---------
E|----------------------|-------------0-----|-------------------|-----------------|---------



E|-0-|---------------------|---7---5-------------|-7------14-12-10-7-5-|-2-3-2---------|-
B|---|-----------2h3-2h3-3-|-----8-7-------0-----|---8-10-------12-8-7-|-------3-------|-
G|---|---0h2-------------2-|-7-----6-6/7---0---2-|-----11------------6-|---------2p0---|-
D|---|-4-----4-----------4-|-------0-------0---4-|-----0-------------0-|-------------4-|-
A|---|---------0---------0-|-------0-----------0-|-----0-------------0-|---------------|-
E|---|-------------------0-|-------------5---0---|-----0-------------0-|---------------|-



E|-----------------|-----3-3-5-5-----|-5-5-7-9-10-5---2-----0-2---|---0-2-----0---------|-
B|-5-5-7-7-8-8-2-2-|-3-3-3-3-5-5-3-3-|-5-5--------0---2---0-0-2-3-|-3---3-3-2-----0-----|-
G|-4-4-6-6-9-9-0-0-|-4-4-4-4-6-6-2-2-|-7-6--------0---2---0-0-2-2-|---------------0---2-|-
D|-5-5-7-7-9-9-2-2-|-5-5---------4-4-|------------0---0---0-0-2-4-|-----0---------0---4-|-
A|-0-0-0-0-0-0-0-0-|-------------0-0-|------------0---0---0-----0-|-----0-------------0-|-
E|-0-0-0-0-0-0-----|-------------0-0-|--------------0---0-0-----0-|-----0-------5---0---|-



E|---0-2-3-5-2---0---|-7------10-9--7-5-------|-------------------------|-
B|-3---3-5-7-3-3---2-|---8-10----10-8-7-----0-|-2h3-----------2h3-2h3-3-|-
G|-------------0---0-|-----11---------6-6/7-0-|-----2-----------------2-|-
D|-------------2---2-|----------------0-----0-|-----4-4-2p0-----------4-|-
A|-------------0---0-|----------------0-------|-----0-------0---------0-|-
E|-------------------|----------------0-----5-|-----0-----------------0-|-



E|-
B|-
G|-
D|-
A|-
E|-
http://www.guitartabcreator.com
Guitar Tab Creator is intended to store guitar tab created through the tool. It currently does not support in-line text editing. Any text you place in here will be lost. If you need to comment on your tab, please use the "Tab Notes" section located below.