Sunset Prelude & Finale w/D Tuning

(/) Slide Up  (\) Slide Down  (h) Hammer On  (p) Pull Off  (b) Bend (r) Release (v) Vibrato
E|---7h8p7-----------------|-12-10-7------------|-------------------|-----------5---------|-
B|---------10-7-8-10-------|---------8-10-------|-------------------|-------7-5---7-------|-
G|-9-----------------7-7h9-|--------------7-7\4-|-4-----------------|-4-7-4---------7-7\4-|-
D|-------------------------|--------------------|---7-5-5\4-5h7-----|---------------------|-
A|-------------------------|--------------------|---------------5h7-|---------------------|-
E|-------------------------|--------------------|-------------------|---------------------|-



E|---7h8p7-----------------|-12-10-7------------|-------------------|----------------------|-
B|---------10-7-8-10-------|---------8-10-------|-7h8-------7h8p7---|----------------------|-
G|-9-----------------7-7h9-|--------------7-7h9-|---------7-------9-|----------6/7---7h8h9-|-
D|-------------------------|--------------------|-----9-7-----------|---9----7-----9-------|-
A|-------------------------|--------------------|-------------------|-7---10---------------|-
E|-------------------------|--------------------|-------------------|----------------------|-



E|-7---5---2-----3---5---2-|-7---5---3---2---|---0-3/7--12-|---2h3p2---------|---
B|-7---5---3-----5---7---3-|-7---5---3---3---|-1--------12-|-3-------3---3/5-|---
G|-6---4---2-----4---6---2-|-6---4---2---2---|-0--------11-|-----------4-----|---
D|-0---0---0-----0---0---0-|-0---0---0---0---|-2--------0--|-----------------|---
A|-0---0---0-----0---0---0-|-0---0---0---0---|-0--------0--|-----------------|---
E|-0---0---0-----0---0---0-|-0---0---0---0---|----------0--|-----------------|---



E|-5---7--------|-
B|-5---7------7-|-
G|-4---6------7-|-
D|------------0-|-
A|------------0-|-
E|------------0-|-



E|-
B|-
G|-
D|-
A|-
E|-
http://www.guitartabcreator.com
Guitar Tab Creator is intended to store guitar tab created through the tool. It currently does not support in-line text editing. Any text you place in here will be lost. If you need to comment on your tab, please use the "Tab Notes" section located below.