e minor scale

(/) Slide Up  (\) Slide Down  (h) Hammer On  (p) Pull Off  (b) Bend (r) Release (v) Vibrato

E|-------------------------------0-2-3-
B|-------------------------0-1-3-------
G|-------------------0-2-4-------------
D|-------------0-2-4-------------------
A|-------0-2-3-------------------------
E|-0-2-3-------------------------------



E|-----------------------------5-7-8-
B|-----------------------5-7-8-------
G|-----------------4-5-7-------------
D|-------------5-7-------------------
A|-------5-7-9-----------------------
E|-5-7-8-----------------------------



E|------------------------------------------------7--8--10--
B|--------------------------------------7--8--10------------
G|--------------------------------7--9----------------------
D|----------------------7--9--10----------------------------
A|------------7--9--10--------------------------------------
E|--7--8--10------------------------------------------------
http://www.guitartabcreator.com
Guitar Tab Creator is intended to store guitar tab created through the tool. It currently does not support in-line text editing. Any text you place in here will be lost. If you need to comment on your tab, please use the "Tab Notes" section located below.