1-17-14 Dualing Guitar

(/) Slide Up  (\) Slide Down  (h) Hammer On  (p) Pull Off  (b) Bend (r) Release (v) Vibrato
E|-------------------------------------8--12--12--8-------------------------------------
B|------------------------------8--11----------------11--8------------------------------
G|-----------------------8--11------------------------------11--8-----------------------
D|----------------8--11--------------------------------------------11--8----------------
A|---------8--12----------------------------------------------------------12--8---------
E|--8--12------------------------------------------------------------------------12--8--



E|------------------------------------------12--16--16--12------------------------------------------
B|----------------------------------12--15------------------15--12----------------------------------
G|--------------------------12--15----------------------------------15--12--------------------------
D|------------------12--15--------------------------------------------------15--12------------------
A|----------12--16------------------------------------------------------------------16--12----------
E|--12--16----------------------------------------------------------------------------------16--12--



E|--------------------------------------------------------------
B|--------------------------------------------------------------
G|--------------------------------------------------------------
D|--------------------------------------------------------------
A|-----------------------------------8--12--8-------------------
E|--8--12--8--0--8--12--8--0--8--12------------12--8--12--8--0--



E|--------------------------------------------------------
B|--------------------------------------------------------
G|--------------------------------------------------------
D|--------------------------------------------------------
A|--------------------------------1--4--1--0--------------
E|--1--4--1--0--1--4--1--0--1--4--------------1--4--1--0--



E|-------------------------------------------------------------------------------------------------------
B|-------------------------------------------------------------------------------------------------------
G|-------------------------------------------------------------------------------------------------------
D|-------------------------------------------------------------------------------------------------------
A|--13--13--13--13--14--13--13--13--13--15--13--13--13--13--16--13--13--13--13--15--13--13--13--13--14v--
E|-------------------------------------------------------------------------------------------------------



E|-------------------------------------------------------------------------------------------------------
B|-------------------------------------------------------------------------------------------------------
G|-------------------------------------------------------------------------------------------------------
D|-------------------------------------------------------------------------------------------------------
A|-------------------------------------------------------------------------------------------------------
E|--13--13--13--13--14--13--13--13--13--15--13--13--13--13--16--13--13--13--13--15--13--13--13--13--14v--



E|--
B|--
G|--
D|--
A|--
E|--
http://www.guitartabcreator.com
Guitar Tab Creator is intended to store guitar tab created through the tool. It currently does not support in-line text editing. Any text you place in here will be lost. If you need to comment on your tab, please use the "Tab Notes" section located below.