ICE CREAM

(/) Slide Up  (\) Slide Down  (h) Hammer On  (p) Pull Off  (b) Bend (r) Release (v) Vibrato
E|-----------0----0--0----------------------
B|-----------3----3--3----------------------
G|--0--0--0--0----0--0--0--0--0--0----0--0--
D|--0--0--0--0h2--2--2--4--4--4--4h5--4--0--
A|--2--2--2--0----0--0--5--5--5--5----5--5--
E|--3--3--3-------------5--5--5--5----5--5--



E|--0--0--0--0----0--0--0--0----0--0--0--0----0--0--0--0-------
B|--3--3--3--3----0--0--0--0----0--0--0--0----3--3--3--3-------
G|--0--0--0--0----0--0--0--0----0--0--0--0----0--0--0--0-------
D|--2--2--2--2----4--4--4--4----4--4--4--4----2--2--2--2-------
A|--3--3--3--3----5--5--5--5----2--2--2--2----3--3--3--3-------
E|------------------------------0--0--0--0---------------------



E|--0--0--0--0----0--0--0--0----0--0--0--0----0--0--0--0--
B|--3--3--3--3----0--0--0--0----3--0--0--0----3--3--3--3--
G|--0--0--0--0----0--0--0--0----0--0--0--0----0--0--0--0--
D|--2--2--2--2----4--4--4--4----0--0--0--0----2--2--2--2--
A|--0--0--0--0----5--5--5--5----2--2--2--2----3--3--3--3--
E|------------------------------3--3--3--3----------------



E|--0--0--0--0----0--0--0--0----0--0--0--0----0--0--0--0--
B|--3--3--3--3----0--0--0--0----0--0--0--0----3--3--3--3--
G|--0--0--0--0----0--0--0--0----0--0--0--0----0--0--0--0--
D|--2--2--2--2----4--4--4--4----4--4--4--4----2--2--2--2--
A|--0--0--0--0----5--5--5--5----2--2--2--2----3--3--3--3--
E|------------------------------0--0--0--0----------------



E|--0--0--0----0--0--0--0----0--0--0--0----0--0--0--0----0--0--0--0----0----0--0--
B|--3--3--3----0--0--0--0----3--3--3--3----3--3--3--3----3--3--3--3----3----3--3--
G|--0--0--0----0--0--0--0----0--0--0--0----0--0--0--0----0--0--0--0----0----0--0--
D|--2--2--2----4--4--4--4----0--0--0--0----0--0--0--0----0--0--0--0----0----0--0--
A|--0--0--0----5--5--5--5----2--2--2--2----0--0--0--0----0--0--0--0----0h2--2--2--
E|---------------------------3--3--3--3----3--3--3--3----3--3--3--3----3----3--3--



E|--0--0--0----0--0--0--0----0--0--0----0----0-----
B|--0--0--0----0--0--0--0----3--3--3----3----3-----
G|--0--0--0----0--0--0--0----0--0--0----0h2--0--0--
D|--2--2--2----4--4--4--4----2--2--2----2----2--2--
A|--2--2--2----5--5--5--5----0--0--0----0----0-----
E|--0--0--0----------------------------------------



E|--0--0--0----0--0--0--0----0--0--0----0----0-----
B|--0--0--0----0--0--0--0----3--3--3----3----3-----
G|--0--0--0----0--0--0--0----0--0--0----0h2--0--0--
D|--2--2--2----4--4--4--4----2--2--2----2----2--2--
A|--2--2--2----5--5--5--5----0--0--0----0----0-----
E|--0--0--0----------------------------------------



E|--0--0--0----0--0--0--0----0----------------0--0--0----0--0--0----0--0--0----0--0--0--
B|--0--0--0----0--0--0--0----3----------------3--3--3----0--0--0----0--0----------0--0--
G|--0--0--0----0--0--0--0----0----------------0--0--0----0--0--0----0--0--0----0--0--0--
D|--2--2--2----4--4--4--4----2----------------2--2--2----4--4--4----4--4--4----4--4--4--
A|--2--2--2----5--5--5--5----0----------------3--3--3----5--5--5----2--2--2----2--2--2--
E|--0--0--0---------------------------------------------------------0--0--0----0--0--0--



E|--0--0--0----0--0--0----0--0--0----0--0--0----0----0--0----0--0--0----0--0--0--0--
B|--0--0--0----3--3--3----0--0--0----0--0--0----0----3--3----3--3--3----0--0--0--0--
G|--0--0--0----0--0--0----0--0--0----0--0--0----0----0--0----0--0--0----0--0--0--0--
D|--0--0--0----2--2--2----4--4--4----4--4--4----0----0--0----2--2--2----4--4--4--4--
A|--2--2--2----0--0--0----5--5--5----5--5--5----0h2--2--2----3--3--3----5--5--5--5--
E|--3--3--3---------------5--5--5---------------3----3--3---------------------------



E|--0--0--0--0----0--0--0--0----0--0--0--0----0--0--0--0--
B|--3--3--3--3----0--0--0--0----0--0--0--0----3--3--3--3--
G|--0--0--0--0----0--0--0--0----0--0--0--0----0--0--0--0--
D|--2--2--2--2----4--4--4--4----4--4--4--4----2--2--2--2--
A|--3--3--3--3----5--5--5--5----2--2--2--2----3--3--3--3--
E|------------------------------0--0--0--0----------------



E|--0--0--0--0----0--0--0--0----0--0--0--0----0--0--0--0--
B|--3--3--3--3----0--0--0--0----3--3--3--3----3--3--3--3--
G|--0--0--0--0----0--0--0--0----0--0--0--0----0--0--0--0--
D|--2--2--2--2----4--4--4--4----0--0--0--0----2--2--2--2--
A|--0--0--0--0----5--5--5--5----2--2--2--2----3--3--3--3--
E|------------------------------3--3--3--3----------------



E|--0--0--0--0----0--0--0--0----0--0--0--0----0--0--0--0--
B|--3--3--3--3----0--0--0--0----0--0--0--0----3--3--3--3--
G|--0--0--0--0----0--0--0--0----0--0--0--0----0--0--0--0--
D|--2--2--2--2----4--4--4--4----4--4--4--4----2--2--2--2--
A|--0--0--0--0----5--5--5--5----2--2--2--2----3--3--3--3--
E|------------------------------0--0--0--0----------------



E|--0--0--0--0----0--0--0--0----0--0--0--0----0--0--0--0----0--0--0--0--0----
B|--3--3--3--3----0--0--0--0----3--3--3--3----3--3--3--3----3--3--3--3--3----
G|--0--0--0--0----0--0--0--0----0--0--0--0----0--0--0--0----0--0--0--0--0----
D|--2--2--2--2----4--4--4--4----0--0--0--0----0--0--0--0----0--0--0--0--0----
A|--0--0--0--0----5--5--5--5----2--2--2--2----0--0--0--0----0--0--0--0--0h2--
E|------------------------------3--3--3--3----3--3--3--3----3--3--3--3--3----



E|--0--0--0----0--0--0--0----0--0--0----0----0-----
B|--0--0--0----0--0--0--0----3--3--3----3----3-----
G|--0--0--0----0--0--0--0----0--0--0----0h2--0--0--
D|--2--2--2----4--4--4--4----2--2--2----2----2--2--
A|--2-----2----5--5--5--5----0--0--0----0----0-----
E|--0--0--0----------------------------------------



E|--0--0--0----0--0--0--0----0--0--0----0----0-----
B|--0--0--0----0--0--0--0----3--3--3----3----3-----
G|--0--0--0----0--0--0--0----0--0--0----0h2--0--0--
D|--2--2--2----4--4--4--4----2--2--2----2----2--2--
A|--2--2--2----5--5--5--5----0--0--0----0----0-----
E|--0--0--0----------------------------------------



E|--0--0--0----0--0--0--0----0----------------0--0--0----0--0--0----0--0--
B|--0--0--0----0--0-----0----3----------------3--3--3----0--0--0----0--0--
G|--0--0--0----0--0--0--0----0----------------0--0--0----0--0--0----0--0--
D|--2--2--2----4--4--4--4----2----------------2--2--2----4--4--4----4--4--
A|--2--2--2----5--5--5--5----0----------------3--3--3----5--5--5----2--2--
E|--0--0--0---------------------------------------------------------0--0--



E|--0--0--0----0--0--0--
B|--3--3--3----0--0--0--
G|--0--0--0----0--0--0--
D|--2--2--2----4--4--4--
A|--3--3--3----5--5--5--
E|----------------------



E|--0--
B|--0--
G|--0--
D|--4--
A|--2--
E|--0--
http://www.guitartabcreator.com
Guitar Tab Creator is intended to store guitar tab created through the tool. It currently does not support in-line text editing. Any text you place in here will be lost. If you need to comment on your tab, please use the "Tab Notes" section located below.