C Major

[code]
(/) Slide Up (\) Slide Down (h) Hammer On (p) Pull Off (b) Bend (r) Release (v) Vibrato


E|-----------
B|--1--------
G|-----------
D|-----2-----
A|--------3--
E|-----------



E|--------3--
B|--1--------
G|-----------
D|-----2-----
A|-----------
E|-----------



E|--------3--------
B|-----------------
G|-----------------
D|-----2-----------
A|--2--------------
E|-----------0-----



E|-----------
B|--1--------
G|-----------
D|--------3--
A|-----3-----
E|-----------



E|--------------
B|--1-----------
G|--------2-----
D|-----1--------
A|--------------
E|-----------2--



E|--------------
B|--1-----------
G|-----2--------
D|--------3-----
A|--------------
E|-----------3--



E|-----------------
B|--------------3--
G|-----------1-----
D|--------3--------
A|-----2-----------
E|--3--------------
[/code]
[url]http://www.guitartabcreator.com[/url]
Guitar Tab Creator is intended to store guitar tab created through the tool. It currently does not support in-line text editing. Any text you place in here will be lost. If you need to comment on your tab, please use the "Tab Notes" section located below.