NEON RIOT

(/) Slide Up  (\) Slide Down  (h) Hammer On  (p) Pull Off  (b) Bend (r) Release (v) Vibrato

E|--5--5--------------------
B|--------------------------
G|--------12--12--12h12-----
D|--------------------------
A|--------------------------
E|--------------------------



E|--5--7h7h7h7--5-------------------5--7h7h7h7--5-----------------------
B|-----------------10--8h8h8h8--10-----------------10--8h8h8h8--10------
G|----------------------------------------------------------------------
D|----------------------------------------------------------------------
A|------------------------------------------------------------------16--
E|----------------------------------------------------------------------



E|--5--5---------------14-----
B|--------12h12h12h12---------
G|----------------------------
D|----------------------------
A|----------------------------
E|-------------------------4--
http://www.guitartabcreator.com
Guitar Tab Creator is intended to store guitar tab created through the tool. It currently does not support in-line text editing. Any text you place in here will be lost. If you need to comment on your tab, please use the "Tab Notes" section located below.