IKYWMK

(/) Slide Up  (\) Slide Down  (h) Hammer On  (p) Pull Off  (b) Bend (r) Release (v) Vibrato


E|------------2----------------2--7--7--7--
B|--7--7-------------6--6------------------
G|--------16-----16--------14--------------
D|-----------------------------------------
A|-----------------------------------------
E|-----------------------------------------



E|--7h7----7h7----7h7----7h7----7h7----7h7----7h7----7h7----7h7----7h7----7h7----7h7----7h7----
B|---------------------------------------------------------------------------------------------
G|---------------------------------------------------------------------------------------------
D|---------------------------------------------------------------------------------------------
A|---------------------------------------------------------------------------------------------
E|---------------------------------------------------------------------------------------------



E|------------2----------------1--5--5--5--
B|--7--7-------------7--6------------------
G|--------16-----16--------14--------------
D|-----------------------------------------
A|-----------------------------------------
E|-----------------------------------------
http://www.guitartabcreator.com
Guitar Tab Creator is intended to store guitar tab created through the tool. It currently does not support in-line text editing. Any text you place in here will be lost. If you need to comment on your tab, please use the "Tab Notes" section located below.