HIT IT

(/) Slide Up  (\) Slide Down  (h) Hammer On  (p) Pull Off  (b) Bend (r) Release (v) Vibrato
E|---------------------7--7h7--2-------------------------7--7h7--2-------------------------7--7h7--2------
B|--7h7--7h7--7h7---------------------7h7--7h7--7h7---------------------7h7--7h7--7h7---------------------
G|--------------------------------------------------------------------------------------------------------
D|-----------------10-------------10-----------------10-------------10-----------------10-------------10--
A|--------------------------------------------------------------------------------------------------------
E|--------------------------------------------------------------------------------------------------------



E|--7--7------7--3h3--3h3--7--7------7--3h3--3h3--7--7------7--3h3--3h3--7--7------7--3h3--3h3--4--4--2--
B|-------------------------------------------------------------------------------------------------------
G|--------14---------------------14---------------------14---------------------14------------------------
D|-------------------------------------------------------------------------------------------------------
A|-------------------------------------------------------------------------------------------------------
E|-------------------------------------------------------------------------------------------------------



E|--7h7--7h7--7h7------7--7h7--3--7h7--7h7--7h7------7--7h7--3--7h7--7h7--7h7------7--7h7--3--9--
B|-----------------------------------------------------------------------------------------------
G|-----------------12----------------------------12----------------------------12----------------
D|-----------------------------------------------------------------------------------------------
A|-----------------------------------------------------------------------------------------------
E|-----------------------------------------------------------------------------------------------
http://www.guitartabcreator.com
Guitar Tab Creator is intended to store guitar tab created through the tool. It currently does not support in-line text editing. Any text you place in here will be lost. If you need to comment on your tab, please use the "Tab Notes" section located below.