Coro, Estrofa, fill

(/) Slide Up  (\) Slide Down  (h) Hammer On  (p) Pull Off  (b) Bend (r) Release (v) Vibrato

E|---------------------------------------
B|---------------------------------------
G|--9--------9------------------------9--
D|--7--------7--------7--------10--9--7--
A|--0--0--0--0--0--0--8--8--8--7---7--0--
E|---------------------------------------



E|--------------------------------------------------
B|--------------------------------------------------
G|--2--------------------------2--------------------
D|--2--------7--------5--------2--------5--------7--
A|--0--0--0--5--5--5--3--3--3--0--0--0--3--3--3--5--
E|--------------------------------------------------



E|-----------------------
B|-----------------------
G|--------------------2--
D|--2--------0--------2--
A|--3--3--3--2--2--2--0--
E|-----------------------
http://www.guitartabcreator.com
Guitar Tab Creator is intended to store guitar tab created through the tool. It currently does not support in-line text editing. Any text you place in here will be lost. If you need to comment on your tab, please use the "Tab Notes" section located below.