intro

(/) Slide Up  (\) Slide Down  (h) Hammer On  (p) Pull Off  (b) Bend (r) Release (v) Vibrato


E|----------------------------------------------------------------------------------------------
B|-15-15-15-15-15-15-15-15-15-15-15-15-15-15-15-15-14-14-14-14-14-14-11-11-11-11-11-11-11-11-11-
G|----------------------------------------------------------------------------------------------
D|-12-12-12-12-12-12-12-12-12-12-12-12-12-12-12-12-11-11-11-11-11-8--8--8--8--8--8--8--8--8--8--
A|----------------------------------------------------------------------------------------------
E|----------------------------------------------------------------------------------------------



E|------------------------------------------------------------------------------
B|-10-10-10-10-10-10-10-10-10-10-10-10-10-10-10-9-9-9-9-9-9-6-6-6-6-6-6-6-6-6-6-
G|-x----------------------------------------------------------------------------
D|-7--7--7--7--7--7--7--7--7--7--7--7--7--7--7--6-6-6-6-6-6-3-3-3-3-3-3-3-3-3-3-
A|------------------------------------------------------------------------------
E|------------------------------------------------------------------------------



E|------------------------------------------------------------------------------
B|---------------------------------------------------------------------------15b
G|------------------------------------------------------------------------------
D|-----0-----11-----8-----0-----11-----8-----0-----11-----8-----0-----11-----8--
A|-----0-----11-----8-----0-----11-----8-----0-----11-----8-----0-----11-----8--
E|-----0-----11-----8-----0-----11-----8-----0-----11-----8-----0-----11-----8--



E|-----------------------------------------------------------------------------------
B|-----------------------------------------------------------------------------------
G|-----------------------------------------------------------------------------------
D|--11--8--7--8--0----10--9--0--8--7--0--7--11--8--7--8--0------8--7--0--4--4--4--4--
A|--11--8--7--8--0----8---7--0--8--7--0--7--11--8--7--8--0------8--7--0--4--4--4--4--
E|--11--8--7--8--0-----------0--8--7--0--7--11--8--7--8--0------8--7--0--4--4--4--4--



E|------------------------------------------------------------------------------|--------
B|------------------------------------------------------------------------------|--------
G|------------------------------------------------------------------------------|--------
D|--11--8--7--8--0------10--9--0--8--7--0--7--11--8--7--8--0--0--8--7--0--4--4--|--4--4--
A|--11--8--7--8--0------8---7--0--8--7--0--7--11--8--7--8--0--0--8--7--0--4--4--|--4--4--
E|--11--8--7--8--0-------------0--8--7--0--7--11--8--7--8--0--0--8--7--0--4--4--|--4--4--



E|--------------------------------------------------------------------------------
B|--------------------------------------------------------------------------------
G|--------------------------------------------------------------------------------
D|--8--5--4--5--0------6--5--0--5--4--0--4--8--5--4--5--0----6--5--5--1--1--1--1--
A|--8--5--4--5--0------4--3--0--5--4--0--4--8--5--4--5--0----4--3--5--1--1--1--1--
E|--8--5--4--5--0---------------5--4--0--4--8--5--4--5--0----------5--1--1--1--1--



E|-----------------------------------------------------------------------------------------------
B|-----------------------------------------------------------------------------------------------
G|-----------------------------------------------------------------------------------------------
D|--8--5--4--5--0----6--5--0--5--4--0--4--8--5--4--5--0--0------6--5--5--1--1--1--1--1--1--1--1--
A|--8--5--4--5--0----4--3--0--5--4--0--4--8--5--4--5--0--0------4--3--5--1--1--1--1--1--1--1--1--
E|--8--5--4--5--0----------0--5--4--0--4--8--5--4--5--0--0------------5--1--1--1--1--1--1--1--1--



E|-----------------------------
B|-----------------------------
G|-----------------------------
D|--1--1--1--1--1--1--1--1--0--
A|--1--1--1--1--1--1--1--1--0--
E|--1--1--1--1--1--1--1--1--0--
http://www.guitartabcreator.com
Guitar Tab Creator is intended to store guitar tab created through the tool. It currently does not support in-line text editing. Any text you place in here will be lost. If you need to comment on your tab, please use the "Tab Notes" section located below.