Both of Us- Taylor Swift & B.o.B.

(/) Slide Up  (\) Slide Down  (h) Hammer On  (p) Pull Off  (b) Bend (r) Release (v) Vibrato


E|------------------------7------12---------------------
B|--8----------10--------------------8-----------8------
G|------7----------7----------7---------9---------------
D|-------------------------------10--------10-------10--
A|--10-----10--10-----10--10----------------------------
E|------------------------------------------------------



E|-----7----------7----------------------------
B|--------8----------8--------10--8-----10--8--
G|-----------7-----------------------7---------
D|-----------9---------------------------------
A|--7------------------------------------------
E|------------------------10-------------------



E|------7------------------------------7------------------------------------------------------
B|---------8-------------8--10--8---------8---------10--8-------------8--10--8---------10--8--
G|------------7------------------------------7-------------7------------------------7---------
D|--------------------------------------------------------------------------------------------
A|--------------------------------------------------------------------------------------------
E|--10---------------10------------10-----------10----------------10------------10------------



E|-----7--------------------7----------------------------------------------------------------
B|--------8--------------------8---------8---------------------------------------------------
G|-------------7---------7------------------7---------7-----------------7-------------7------
D|-------------9----------------------9-----------10-----10---------10-----10-----10-----10--
A|--7-----------------7----------------------------------------------------------------------
E|--------------------------------10-----------8-----------------8-------------8-------------



E|----------------------------------------------------------------------------------------
B|---------8----------------8------------8------------7----------------7------------7-----
G|------------7----------7-----7------7-----7------------7----------7-----7------7-----7--
D|------9------------------------------------------7--------------------------------------
A|--10---------------10-----------10------------------------------------------------------
E|---------------------------------------------10---------------10-----------10-----------



E|--------7---------------------------------------------------------------------
B|-----------8------------8------------8----------------------------------------
G|-----9---------------9-----9------9-----9---------7-----------------7---------
D|----------------------------------------------10-----10---------10-----10-----
A|--7---------------7-----------------------------------------------------------
E|------------------------------10-----------8-----------------8-------------8--
http://www.guitartabcreator.com
Guitar Tab Creator is intended to store guitar tab created through the tool. It currently does not support in-line text editing. Any text you place in here will be lost. If you need to comment on your tab, please use the "Tab Notes" section located below.