Termination

(/) Slide Up  (\) Slide Down  (h) Hammer On  (p) Pull Off  (b) Bend (r) Release (v) Vibrato


E|-2-----------2-----5-2h4p2-----2-----|-
B|---5p2-----2---5p2---------5-2---5p2-|-
G|-------4b6---------------------------|-
D|-------------------------------------|-
A|-------------------------------------|-
E|-------------------------------------|-



E|-2-------------2-5-2h4p2---------2-----|-
B|---5p2-----2h5-----------5-2-2h5---5p2-|-
G|-------4b6-----------------------------|-
D|---------------------------------------|-
A|---------------------------------------|-
E|---------------------------------------|-



E|-2-------5-7-5h7p5-----------|-
B|---2-5/7-----------7-5-5h7-7-|-
G|-----------------------------|-
D|-----------------------------|-
A|-----------------------------|-
E|-----------------------------|-



E|-5h7p5---------5h7p5---------5h7p5-------|-
B|-------7-5-5h7-------7-5-5h7-------7p5h7-|-
G|-----------------------------------------|-
D|-----------------------------------------|-
A|-----------------------------------------|-
E|-----------------------------------------|-
http://www.guitartabcreator.com
Guitar Tab Creator is intended to store guitar tab created through the tool. It currently does not support in-line text editing. Any text you place in here will be lost. If you need to comment on your tab, please use the "Tab Notes" section located below.