Riffs

(/) Slide Up  (\) Slide Down  (h) Hammer On  (p) Pull Off  (b) Bend (r) Release (v) Vibrato
E|--------------------------------------------|--
B|--------------------------------------------|--
G|--------------------------------------------|--
D|---------------------------------------0h2--|--
A|--0h2--2--0h1-----0h2--2--0h1-----0h2-------|--
E|---------------3---------------3------------|--



E|--------------------------------------------------|--
B|--------------------------------------------------|--
G|--------------------------------------------------|--
D|--------------3-----------------3--5--3-----------|--
A|-----5--3--5-----5--3--------5-----------5--3-----|--
E|--3--------------------6--3--------------------6--|--



E|----------------------------------------------------------------------|--
B|----------------------------------------------------------------------|--
G|----------------------------------------------------------------------|--
D|----------7-----7----------7-----7----------7-----7----------5-----5--|--
A|--0--3/5-----5--5--0--3/5-----5--5--0--3/5-----5--5-----1/3-----3--3--|--
E|-----------------------------------------------------3----------------|--



E|--------------------------------------------------|--
B|--------------------------------------------------|--
G|--------------------------------------------------|--
D|--------------------------------------------------|--
A|--------4--------4--------4--------4--------4--5--|--
E|--0--2-----0--2-----0--2-----0--2-----0--2--------|--



E|--------------------------------------------------|--
B|--------------------------------------------------|--
G|--------------------------------------------------|--
D|--------------------------------------------------|--
A|--------4--------4--------------------------------|--
E|--2--2-----0--2-----2--0--7--5--4--5--7--5--4--0--|--



E|--------------------------------------------------|--
B|--------------------------------------------------|--
G|--------------------------------------------------|--
D|--------------------------------------------------|--
A|--------5--------5--------------4--------4--------|--
E|--4--4-----2--4-----4--2--0--2-----0--2-----2--0--|--



E|-----------------------------------------|-
B|-----------------------------------------|-
G|-----------------------------------------|-
D|-3h5-5---5---5-3---3h5-5---5---5-3h5p3---|-
A|-----------------5---------------------5-|-
E|-------3---3-------------3---3-----------|-



E|----------------------------------------------------------|--
B|----------------------------------------------------------|--
G|----------------------3h5p3-------------------------------|--
D|--3h5--5-----5-----5---------5--3h5--5-----5--5-----------|--
A|-------------------------------------------------3--4--5--|--
E|----------3-----3-----------------------3-----------------|--



E|--------------------------------------------------|--
B|--------------------------------------------------|--
G|--------------------------------------------------|--
D|-----0--5--------3-----0--5--------3--------------|--
A|--4--------4--5-----4--------4--5-----5--4--3-----|--
E|-----------------------------------------------6--|--



E|--------------------------------------------------|--
B|--------------------------------------------------|--
G|--------------------------------------------------|--
D|--------------------------------------------------|--
A|-----------------------------------0--2--0--1-----|--
E|--0--0--3--0--3--5--0--0--3--0--3--------------3--|--



E|---------------------------------|---------------------------------|-
B|---------------------------------|---------------------------------|-
G|---------------------------------|-----------------3-5-3-5-3-------|-
D|-----------------3-5-3-5-3-------|---------3---3-5-----------5-3---|-
A|---------3---3-5-----------5-3---|-3-6-3-6---6-------------------6-|-
E|-3-6-3-6---6-------------------6-|---------------------------------|-



E|---------------------------------|-
B|---------------------------------|-
G|---------------------------------|-
D|---------------------------------|-
A|---0-3-4-2-----0-3-4-2-----0-2-3-|-
E|-2---------5-2---------5-2-------|-



E|---------------------------------|-
B|---------------------------------|-
G|---------------------------------|-
D|-------4-------4-------4---------|-
A|-3-0-2---3-0-2---3-0-2-----4-3-0-|-
E|-------------------------2-------|-



E|---------------------------------|---------------------------------|-
B|---------------------------------|---------------------------------|-
G|---------------------------------|---------------------------------|-
D|---------------------------------|-------0-2---5---------0-2-5-2---|-
A|---------5---7-----------5-7-5---|-0-1-2---------0---1-2---------5-|-
E|-0-5-6-7-------0---5-6-7-------7-|---------------------------------|-



E|-------------------------|---------------------------------|-
B|-------------------------|---------------------------------|-
G|-------------------------|---------------------------------|-
D|-----2-------2-----------|-----2-----2-----2-----2-----0h2-|-
A|---------------------5h7-|---------------------------------|-
E|-0h3---0-0h3---0-5h7-----|-0h3---0h5---0h3---0h5---0h3-----|-



E|---------------------------------|---------------------------------|-
B|---------------------------------|---------------------------------|-
G|---------------------------------|---------------------------------|-
D|-----2-----2-------2-----2-------|---------------------------------|-
A|-0-3---0-3---5-0-3---0-3---5-3-2-|-----2-----2-------2-----2-------|-
E|---------------------------------|-0-3---0-3---5-0-3---0-3---5-3-1-|-



E|---------------------------------|-
B|---------------------------------|-
G|---------------------------------|-
D|-4-2-------4-2-------------------|-
A|-----4-3-2-----4-3-2-------------|-
E|---------------------5-2-0-2-2-2-|-



E|---------------------------------|---------------------------------|-
B|---------------------------------|---------------------------------|-
G|---------------------------------|---------------------------------|-
D|---------------------------------|-------------------------2---2---|-
A|-------------------------4-3-2---|-2-4-4-4-4-4-4-4-2-4-4-4---4---4-|-
E|-0-2-2-2-2-2-2-2-0-2-2-2-------5-|---------------------------------|-



E|-------------------------|-
B|-------------------------|-
G|-------------------------|-
D|-------------------------|-
A|-------3---3-5/7-6-5-----|-
E|-0-3h5---5-----------8-5-|-
http://www.guitartabcreator.com
Guitar Tab Creator is intended to store guitar tab created through the tool. It currently does not support in-line text editing. Any text you place in here will be lost. If you need to comment on your tab, please use the "Tab Notes" section located below.