QL

(/) Slide Up  (\) Slide Down  (h) Hammer On  (p) Pull Off  (b) Bend (r) Release (v) Vibrato


E|-----------------------------|-
B|-----------------------------|-
G|-9-8-7\5---------------------|-
D|---------7h5-----------------|-
A|-------------7-6-5\3---------|-
E|---------------------5-3-3h5-|-



E|-12-11-10\8-------------------------------------------|-
B|------------10-8-8h10---------------------------------|-
G|----------------------9-8-7\5-------------------------|-
D|------------------------------7-5-5h7-----------------|-
A|--------------------------------------7-6-5\3---------|-
E|----------------------------------------------5-3-3h5-|-



E|-----
B|-----
G|-----
D|-----
A|-----
E|-----
http://www.guitartabcreator.com
Guitar Tab Creator is intended to store guitar tab created through the tool. It currently does not support in-line text editing. Any text you place in here will be lost. If you need to comment on your tab, please use the "Tab Notes" section located below.