norsk dans 2

(/) Slide Up  (\) Slide Down  (h) Hammer On  (p) Pull Off  (b) Bend (r) Release (v) Vibrato
E|-9-10-9---------------|----------------------|---------|----------|-
B|--------12-10-12-10-9-|----9-----------------|---------|----------|-
G|----------------------|-11---11-9----9-------|---------|----------|-
D|----------------------|-----------12---12-11-|-9-11-11-|----11-11-|-
A|----------------------|----------------------|---------|-11-------|-
E|----------------------|----------------------|---------|----------|-



E|-9-10-9------------|-----------------------|-9-10-9------------|---------------|-
B|--------12-10------|-10----9-------9-10-12-|--------12-10------|-10----9-------|-
G|---------------11--|----11---10-11---------|---------------11--|----11---10-11-|-
D|-------------------|-----------------------|-------------------|---------------|-
A|-------------------|-----------------------|-------------------|---------------|-
E|-------------------|-----------------------|-------------------|---------------|-



E|-9-9-9-9-|-9----9-9-|-9-9-9-9-|-9----9-9-|-
B|---------|---10-----|---------|---10-----|-
G|---------|----------|---------|----------|-
D|---------|----------|---------|----------|-
A|---------|----------|---------|----------|-
E|---------|----------|---------|----------|-



E|-
B|-
G|-
D|-
A|-
E|-
http://www.guitartabcreator.com
Guitar Tab Creator is intended to store guitar tab created through the tool. It currently does not support in-line text editing. Any text you place in here will be lost. If you need to comment on your tab, please use the "Tab Notes" section located below.