Modal Interchange

(/) Slide Up  (\) Slide Down  (h) Hammer On  (p) Pull Off  (b) Bend (r) Release (v) Vibrato
E|----------------------|---------------------|----------------------------------|-
B|-10-10-10\9-9\5-5-5v--|-8-8-8\5-5\3-3/5-5v--|-----------5-5--5h7-5-------------|-
G|----------------------|---------------------|-----2-4\6-------------2-4/6\4-2--|-
D|----------------------|---------------------|-2h4------------------------------|-
A|----------------------|---------------------|----------------------------------|-
E|----------------------|---------------------|----------------------------------|-



E|-----------------------------|-5p4------------------------------------|-
B|---------8-8--8h10-8---------|-----5----------------------------------|-
G|---5-7/9--------------9r7-5--|-------4--------------------------------|-
D|-7---------------------------|---------6h7p6-------------------6b7r6--|-
A|-----------------------------|---------------7-4h7p4-------4-7--------|-
E|-----------------------------|-----------------------5-4-5------------|-



E|--------------------------------------15-13p12---------|-
B|--------------------------13p10/12h13----------13------|-
G|---------------12p9/10h12-------------------------12v--|-
D|-----10p7/9h10-----------------------------------------|-
A|-7h8---------------------------------------------------|-
E|-------------------------------------------------------|-



E|---------------------|---------------------|------------------------|-
B|---------5h6p5-------|---------------------|--------5h6p5---5-------|-
G|---5-7b9-------7-5v--|-6--6-7-9-5--7/9\7-5-|-7--5-7-------7---7p5---|-
D|-7-------------------|---------------------|----------------------7-|-
A|---------------------|---------------------|------------------------|-
E|---------------------|---------------------|------------------------|-



E|---------------------|----------------------------|---
B|---------------------|----------------------------|---
G|-6--6-7-9-5--7/9\7-5-|-7/11--11-11/12-12/14-14/16-|---
D|---------------------|----------------------------|---
A|---------------------|----------------------------|---
E|---------------------|----------------------------|---



E|------------------|--------------|-
B|------------------|--------------|-
G|-14--14-16-17-16--|-21r19-17-18--|-
D|------------------|--------------|-
A|------------------|--------------|-
E|------------------|--------------|-
http://www.guitartabcreator.com
Guitar Tab Creator is intended to store guitar tab created through the tool. It currently does not support in-line text editing. Any text you place in here will be lost. If you need to comment on your tab, please use the "Tab Notes" section located below.