Iron man solo part 3

(/) Slide Up  (\) Slide Down  (h) Hammer On  (p) Pull Off  (b) Bend (r) Release (v) Vibrato


E|--------------------------------------------------------------------------|-----
B|-----------------9h12p9---------------------------------------------------|-----
G|--------9h11b13----------11--9--9h11p9---------------9h11b13r11p9---------|-----
D|--9h11----------------------------------11--9--9h11----------------11--9--|-----
A|--------------------------------------------------------------------------|-----
E|--------------------------------------------------------------------------|-----



E|----------------------------------------|---------------------------------------|--
B|----------------------------------------|---------------------------------------|--
G|----------------------------------------|---------------------------------------|--
D|--9h11--9h11--9h11--9h11--9h11--11--11--|--9h11--9h11--9h11--9h11--9h11--11-----|--
A|----------------------------------------|---------------------------------------|--
E|----------------------------------------|------------------------------------9--|--
http://www.guitartabcreator.com
Guitar Tab Creator is intended to store guitar tab created through the tool. It currently does not support in-line text editing. Any text you place in here will be lost. If you need to comment on your tab, please use the "Tab Notes" section located below.