Iron Man solo part 2

(/) Slide Up  (\) Slide Down  (h) Hammer On  (p) Pull Off  (b) Bend (r) Release (v) Vibrato


E|--9---------------------9--12--9h11p9------9------------------------|--
B|-----12p9---------9h12-----------------12-----12p9------------------|--
G|-----------11b13------------------------------------11b13r11p9------|--
D|----------------------------------------------------------------11--|--
A|--------------------------------------------------------------------|--
E|--------------------------------------------------------------------|--



E|---------------------------9--9------------9--9------------9--9------------
B|---------------------------------12p9------------12p9------------12p9------
G|--9--9---------------------------------11--------------11--------------11--
D|--------11p9------9--9h11--------------------------------------------------
A|--------------11-----------------------------------------------------------
E|---------------------------------------------------------------------------



E|--
B|--
G|--
D|--
A|--
E|--
http://www.guitartabcreator.com
Guitar Tab Creator is intended to store guitar tab created through the tool. It currently does not support in-line text editing. Any text you place in here will be lost. If you need to comment on your tab, please use the "Tab Notes" section located below.