G licks

(/) Slide Up  (\) Slide Down  (h) Hammer On  (p) Pull Off  (b) Bend (r) Release (v) Vibrato


E|----------------------------------------------------|-----
B|----------------------------------------------------|-----
G|--0h3p0-----3--0h3p0-----3--0h3p0-----3-------------|-----
D|---------5------------5------------5-----5--3--3h5--|-----
A|----------------------------------------------------|-----
E|----------------------------------------------------|-----



E|----------------------------------------------------|--
B|----------------------------------------------------|--
G|----------------------------------------------------|--
D|--0h3p0-----3--0h3p0-----3--0h3p0-----3-------------|--
A|---------5------------5------------5-----5--3--3h5--|--
E|----------------------------------------------------|--



E|--
B|--
G|--
D|--
A|--
E|--
http://www.guitartabcreator.com
Guitar Tab Creator is intended to store guitar tab created through the tool. It currently does not support in-line text editing. Any text you place in here will be lost. If you need to comment on your tab, please use the "Tab Notes" section located below.