G-flat SRV style

(/) Slide Up  (\) Slide Down  (h) Hammer On  (p) Pull Off  (b) Bend (r) Release (v) Vibrato


E|----------------2-------5--2h4p2--|----------------2-------5--2h4p2--|-----
B|--5--2-------2-----5p2------------|--5--2-------2-----5p2------------|-----
G|--------4b6-----------------------|--------4b6-----------------------|-----
D|----------------------------------|----------------------------------|-----
A|----------------------------------|----------------------------------|-----
E|----------------------------------|----------------------------------|-----



E|--2---------------2-------5--2h4p2--------|--2---------------2-------5--2h4p2-----|-----
B|-----5p2-------2-----5p2------------5--2--|-----5p2-------2-----5p2------------5--|-----
G|----------4b6-----------------------------|----------4b6--------------------------|-----
D|------------------------------------------|---------------------------------------|-----
A|------------------------------------------|---------------------------------------|-----
E|------------------------------------------|---------------------------------------|-----



E|--2-----------------2--5--2h4p2-------------|--2-----------------2--5--2h4p2-------------|-----
B|-----5p2-------2h5---------------5--2--2h5--|-----5p2-------2h5---------------5--2--2h5--|-----
G|----------4b6-------------------------------|----------4b6-------------------------------|-----
D|--------------------------------------------|--------------------------------------------|-----
A|--------------------------------------------|--------------------------------------------|-----
E|--------------------------------------------|--------------------------------------------|-----
http://www.guitartabcreator.com
Guitar Tab Creator is intended to store guitar tab created through the tool. It currently does not support in-line text editing. Any text you place in here will be lost. If you need to comment on your tab, please use the "Tab Notes" section located below.