G-flat etyde

(/) Slide Up  (\) Slide Down  (h) Hammer On  (p) Pull Off  (b) Bend (r) Release (v) Vibrato


E|--19--17--14------------------------------------------------------------------
B|--------------19--17--14------------------------------------------------------
G|--------------------------18--16--14------------------------------------------
D|--------------------------------------19--16--14--------------------------16--
A|--------------------------------------------------19--16--14------------------
E|--------------------------------------------------------------19--17--14------



E|--17--14--12---------------------------------------------------------------------
B|--------------17--14--12---------------------------------------------------------
G|--------------------------16--14--11---------------------------------------------
D|--------------------------------------16--14--11---------------------------------
A|--------------------------------------------------16--14--11---------------------
E|--------------------------------------------------------------17--14--12--12h14--



E|--14--12--9----------------------------------------------------------
B|-------------14--12--10----------------------------------------------
G|-------------------------14--11--9-----------------------------------
D|------------------------------------14--11--9------------------------
A|-----------------------------------------------14--12--9-------------
E|----------------------------------------------------------14--12--9--



E|--5--2--0-------------------------------------------------------
B|-----------5--2--0----------------------------------------------
G|--------------------4--2--2-------------------------------------
D|-----------------------------4--2--2----------------------------
A|--------------------------------------4--2--0-------------------
E|-----------------------------------------------5--2--0--0h2--2--
http://www.guitartabcreator.com
Guitar Tab Creator is intended to store guitar tab created through the tool. It currently does not support in-line text editing. Any text you place in here will be lost. If you need to comment on your tab, please use the "Tab Notes" section located below.