F# minor

(/) Slide Up  (\) Slide Down  (h) Hammer On  (p) Pull Off  (b) Bend (r) Release (v) Vibrato


E|-10----10-14-10-14-|-9----9-14-9-14-|-7----7-12-7-12-|-7---7-12-7-12-|-
B|----12-------------|---12-----------|---10-----------|---9-----------|-
G|-------------------|----------------|----------------|---------------|-
D|-------------------|----------------|----------------|---------------|-
A|-------------------|----------------|----------------|---------------|-
E|-------------------|----------------|----------------|---------------|-



E|-5---5-9-5-9-|-------9---9-|-------9---9-|-
B|---7---------|-9-7-9---9---|-9-6-9---9---|-
G|-------------|-------------|-------------|-
D|-------------|-------------|-------------|-
A|-------------|-------------|-------------|-
E|-------------|-------------|-------------|-
http://www.guitartabcreator.com
Guitar Tab Creator is intended to store guitar tab created through the tool. It currently does not support in-line text editing. Any text you place in here will be lost. If you need to comment on your tab, please use the "Tab Notes" section located below.