Em pentatonisk + blues

(/) Slide Up  (\) Slide Down  (h) Hammer On  (p) Pull Off  (b) Bend (r) Release (v) Vibrato
E|--12h15p12-------------------------------------------------------------------
B|------------15--12--12h15p12-------------------------------------------------
G|------------------------------14p12------12h14p12-----------------12--12h14--
D|-------------------------------------14------------14--12--12h14-------------
A|-----------------------------------------------------------------------------
E|-----------------------------------------------------------------------------



E|-----------------------------------------------------------------------------
B|--12h15p12-------------------------------------------------------------------
G|------------14--12--12h14p12-------------------------------------------------
D|------------------------------14p12------12h14p12-----------------12--12h14--
A|-------------------------------------14------------14--12--12h14-------------
E|-----------------------------------------------------------------------------



E|----------------------------------------------------------15--12h15p12----------
B|---------12--12---------12--12---------12--12---------12----------------15--12--
G|--14b16----------14b16----------14b16----------14b16----------------------------
D|--------------------------------------------------------------------------------
A|--------------------------------------------------------------------------------
E|--------------------------------------------------------------------------------



E|--------------------------------------------------12--12---------12--15p12----------
B|---------12--12---------12--15p12------12--15b17----------15b17-------------15--12--
G|--14b16----------14b16-------------14-----------------------------------------------
D|------------------------------------------------------------------------------------
A|------------------------------------------------------------------------------------
E|------------------------------------------------------------------------------------



E|---------12h15p12---------------------------------------------------------------
B|--12h15------------15--12--12h15p12-------------12h15p12------------------------
G|-------------------------------------14--12h14------------14--12--12h14p12------
D|----------------------------------------------------------------------------14--
A|--------------------------------------------------------------------------------
E|--------------------------------------------------------------------------------



E|--10h12p10--------------------|--
B|------------12--10h11p10------|--
G|--------------------------12--|--
D|------------------------------|--
A|------------------------------|--
E|------------------------------|--



E|-----------------------------------------------------------------------------------|-
B|-----------------------------------------------------------------------------------|-
G|-0-12----0-11----0-9----0-12----0-11----0-12----0-11----0-9----0-12----0-11----0-9-|-
D|------14------12-----10------14------12------14------12-----10------14------12-----|-
A|-----------------------------------------------------------------------------------|-
E|-----------------------------------------------------------------------------------|-



E|---------------------------------------|-
B|------15------13-----12-----10-----8---|-
G|-0-12----0-12----0-9----0-7----0-7---7-|-
D|---------------------------------------|-
A|---------------------------------------|-
E|---------------------------------------|-



E|----------------------------------------------------------|-
B|-10h11p10----10-10h11p10----10-------12-15-12h15p12-------|-
G|----------12-------------12----12/14----------------15-14-|-
D|----------------------------------------------------------|-
A|----------------------------------------------------------|-
E|----------------------------------------------------------|-



E|----------------------------------------------10-12-10h12p10----|-
B|-10h11p10----10h11p10----10h11p10----10-10h12----------------12-|-
G|----------12----------12----------12----------------------------|-
D|----------------------------------------------------------------|-
A|----------------------------------------------------------------|-
E|----------------------------------------------------------------|-



E|-----3-----------------------------------|-
B|-3h5---5-3h5p3---------------------------|-
G|---------------4-3-2h3p2---2-2h3p2---2h4-|-
D|-------------------------5---------5-----|-
A|-----------------------------------------|-
E|-----------------------------------------|-



E|----------12-------------|----------------------------|-
B|-------12----15p12-------|----------------------------|-
G|-12h13-------------15-14-|----------------------------|-
D|-------------------------|-------12-------------------|-
A|-------------------------|-12h14----14-13-12h13p12----|-
E|-------------------------|-------------------------15-|-



E|----------------------------------|-
B|----------------------------------|-
G|----------------------------------|-
D|-------12h14p12-------------------|-
A|-12h14----------14-13-12h13p12----|-
E|-------------------------------15-|-



E|-------15-18-15h17p15----------------------------|---
B|-15h17----------------17-15h17-17-------17-------|---
G|----------------------------------15h16----15-16-|---
D|-------------------------------------------------|---
A|-------------------------------------------------|---
E|-------------------------------------------------|---



E|----------------------------------------------------------|-
B|----------------------------------------------------------|-
G|----------------------------------------------------------|-
D|----------------------------------------------------12h14-|-
A|-12h13p12-------------12h13p12----12h13p12----12h14-------|-
E|----------15-12-12h15----------15----------15-------------|-



E|-------------------------------------------------------------------|-
B|-------------------------------------------------------------------|-
G|-------------12h15p12----------------------------------------------|-
D|-------12h14----------14-12-12h14p12-------------------------------|-
A|-12h14-------------------------------14-13-12h13p12----12h13p12----|-
E|----------------------------------------------------15----------15-|-



E|-
B|-
G|-
D|-
A|-
E|-
http://www.guitartabcreator.com
Guitar Tab Creator is intended to store guitar tab created through the tool. It currently does not support in-line text editing. Any text you place in here will be lost. If you need to comment on your tab, please use the "Tab Notes" section located below.