e-major etyde

(/) Slide Up  (\) Slide Down  (h) Hammer On  (p) Pull Off  (b) Bend (r) Release (v) Vibrato
E|-9-12-9---------------|----11------------------|----9-----------------|-
B|--------10----10-9-10-|-12----12---------------|-10---10--------------|-
G|-----------11---------|----------13-9-13-11-13-|---------11-8-11-9-11-|-
D|----------------------|------------------------|----------------------|-
A|----------------------|------------------------|----------------------|-
E|----------------------|------------------------|----------------------|-



E|---------4---4---|-
B|-4---5-----7---5-|-
G|---6-------------|-
D|-------6---------|-
A|-----------------|-
E|-----------------|-



E|-----------------------11-9--------------|-
B|----------------------------12-10-9------|-
G|-8----9----8----9----8--------------11-9-|-
D|---11--------11--------------------------|-
A|--------11--------11---------------------|-
E|-----------------------------------------|-



E|---12-11-9------9-----------12-11-9------9---------|-
B|-----------12-------12--------------12-------10-12-|-
G|-9------------9---9----11-9------------9---9-------|-
D|---------------------------------------------------|-
A|---------------------------------------------------|-
E|---------------------------------------------------|-



E|----14-12-11-------11-------------14-12-11-------11----------|-
B|-------------14----------14----------------14----------14-12-|-
G|-11-------------11----11----13-11-------------11----11-------|-
D|-------------------------------------------------------------|-
A|-------------------------------------------------------------|-
E|-------------------------------------------------------------|-



E|-11-------11-------------------|-9-------9------------------|-
B|----12-14----14----10-14-12-14-|---10-12---12----9-12-10-12-|-
G|----------------13-------------|--------------11------------|-
D|-------------------------------|----------------------------|-
A|-------------------------------|----------------------------|-
E|-------------------------------|----------------------------|-



E|-7------7----------------|-
B|---9-10---10---7-10-9-10-|-
G|-------------9-----------|-
D|-------------------------|-
A|-------------------------|-
E|-------------------------|-



E|----16-14-12-------12----------|-
B|-------------16----------16-12-|-
G|-13-------------13----13-------|-
D|-------------------------------|-
A|-------------------------------|-
E|-------------------------------|-



E|-------------------------------------------------|-
B|-17-16-17----------17-16-17----------17-16-17----|-
G|----------16-13-16----------16-13-16----------16-|-
D|-------------------------------------------------|-
A|-------------------------------------------------|-
E|-------------------------------------------------|-



E|-11-14-11----11-14-11----9-12-9----9----9----|---
B|----------12----------12--------12---10---12-|---
G|---------------------------------------------|---
D|---------------------------------------------|---
A|---------------------------------------------|---
E|---------------------------------------------|---



E|----14-12-11----12-11----|----12-11-9----11-9----|-
B|-12----------14-------14-|-10---------12------12-|-
G|-------------------------|-----------------------|-
D|-------------------------|-----------------------|-
A|-------------------------|-----------------------|-
E|-------------------------|-----------------------|-



E|---11-9-7----9-7----|----------------------|-
B|-9--------10-----10-|---12-10-9----10-9----|-
G|--------------------|-9---------11------11-|-
D|--------------------|----------------------|-
A|--------------------|----------------------|-
E|--------------------|----------------------|-



E|------------------------------|-
B|---------------------12-16-17-|-
G|------------------13----------|-
D|------------11-14-------------|-
A|------11-14-------------------|-
E|-0-12-------------------------|-



E|-------------------7-5-4---------|-0-7-5-4---5-4-0-12-11-9------------|-
B|-0-7-5-4---5-4-----------7-5-4---|---------7---------------12-10-9----|-
G|---------6-----6-4-------------6-|---------------------------------11-|-
D|---------------------------------|------------------------------------|-
A|---------------------------------|------------------------------------|-
E|---------------------------------|------------------------------------|-



E|---7-5-4-------------------------|-
B|---------7-5-4---5-4-5-0-5-4-5---|-
G|-4-------------6---------------6-|-
D|---------------------------------|-
A|---------------------------------|-
E|---------------------------------|-



E|-------------------|----------------|---------------|---------------|-
B|-10----10-14-10-14-|-9----9-14-9-14-|-7---7-12-7-12-|-7---7-12-7-12-|-
G|----11-------------|---11-----------|---9-----------|---8-----------|-
D|-------------------|----------------|---------------|---------------|-
A|-------------------|----------------|---------------|---------------|-
E|-------------------|----------------|---------------|---------------|-



E|-0-----4---|-------4---4-|-------4---4-|-
B|---4-5---5-|-4---4---4---|-4---4---4---|-
G|-----------|---6---------|---5---------|-
D|-----------|-------------|-------------|-
A|-----------|-------------|-------------|-
E|-----------|-------------|-------------|-
http://www.guitartabcreator.com
Guitar Tab Creator is intended to store guitar tab created through the tool. It currently does not support in-line text editing. Any text you place in here will be lost. If you need to comment on your tab, please use the "Tab Notes" section located below.