Dobbel-pentatonisk

(/) Slide Up  (\) Slide Down  (h) Hammer On  (p) Pull Off  (b) Bend (r) Release (v) Vibrato


E|---------12h17p12-------------------------------12--17--12h17p12-------------
B|--12h17------------17--12--12h17p12------12h17--------------------17p12------
G|-------------------------------------14----------------------------------14--
D|-----------------------------------------------------------------------------
A|-----------------------------------------------------------------------------
E|-----------------------------------------------------------------------------



E|--17--15--12--------------------------------------------------------------
B|--------------17--15--12--------------------------------------------------
G|--------------------------16--14--12--------------------------------------
D|--------------------------------------17--14--12--------------------------
A|--------------------------------------------------17--14--12--------------
E|--------------------------------------------------------------17--15--12--



E|--12h17p12------12--12h17p12------12--------------------------------------
B|------------15----------------15------17p12------12--12h17p12------12h17--
G|---------------------------------------------14----------------14---------
D|--------------------------------------------------------------------------
A|--------------------------------------------------------------------------
E|--------------------------------------------------------------------------
http://www.guitartabcreator.com
Guitar Tab Creator is intended to store guitar tab created through the tool. It currently does not support in-line text editing. Any text you place in here will be lost. If you need to comment on your tab, please use the "Tab Notes" section located below.