d-minor

(/) Slide Up  (\) Slide Down  (h) Hammer On  (p) Pull Off  (b) Bend (r) Release (v) Vibrato


E|-18-15-17----13-17----13-17-------15-|-18-15-17----13-17----13-17----12-15-|-
B|----------15-------15-------13-17----|----------15-------15-------13-------|-
G|-------------------------------------|-------------------------------------|-
D|-------------------------------------|-------------------------------------|-
A|-------------------------------------|-------------------------------------|-
E|-------------------------------------|-------------------------------------|-



E|----10-14----10-14----9-12----9-12-|----7-10---7-10---5-9---5-9-|---
B|-12-------12-------12------10------|-10------9------9-----7-----|---
G|-----------------------------------|----------------------------|---
D|-----------------------------------|----------------------------|---
A|-----------------------------------|----------------------------|---
E|-----------------------------------|----------------------------|---



E|---4-7---4-7---2-5---2-5-|---0-3---0-3---0h1p0-------|-
B|-7-----5-----5-----3-----|-3-----2-----2-------3-2h3-|-
G|-------------------------|---------------------------|-
D|-------------------------|---------------------------|-
A|-------------------------|---------------------------|-
E|-------------------------|---------------------------|-
http://www.guitartabcreator.com
Guitar Tab Creator is intended to store guitar tab created through the tool. It currently does not support in-line text editing. Any text you place in here will be lost. If you need to comment on your tab, please use the "Tab Notes" section located below.