Caprice 5 Tab

(/) Slide Up  (\) Slide Down  (h) Hammer On  (p) Pull Off  (b) Bend (r) Release (v) Vibrato


E|---------------------------------|---------------------------------|-
B|---------------------------------|---------------------------------|-
G|-------------------2-------------|-------------------2-------------|-
D|-----2-------2-------5-3-2-------|-----2-------2-------5-3-2-------|-
A|-0-3---3-2-5---5-3---------5-3-2-|-0-3---3-2-5---5-3---------5-3-2-|-
E|---------------------------------|---------------------------------|-



E|---------------------------------|------------------------------------10-12-|-
B|---------------------------------|---------------------------------12-------|-
G|---------------------------------|----------------------------9-13----------|-
D|-----2-------3-------3-------2---|-----3------------------------------------|-
A|-0-4---4-0-5---5---2---2---2---2-|---2---5-3-0-12-------11-14---------------|-
E|-----------------3-------3-------|-4--------------11-12---------------------|-
http://www.guitartabcreator.com
Guitar Tab Creator is intended to store guitar tab created through the tool. It currently does not support in-line text editing. Any text you place in here will be lost. If you need to comment on your tab, please use the "Tab Notes" section located below.