Caprice 5 andy "killer" james

(/) Slide Up  (\) Slide Down  (h) Hammer On  (p) Pull Off  (b) Bend (r) Release (v) Vibrato
E|---------------------------------|---------------------------------|-
B|---------------------------------|---------------------------------|-
G|-------------------9-7-5---------|-------------------9-7-5---------|-
D|---5-9-5---7-9-7-5-------9-7-5---|---5-9-5---7-9-7-5-------9-7-5---|-
A|-7-------9---------------------9-|-7-------9---------------------9-|-
E|---------------------------------|---------------------------------|-



E|---------------------------------|---------------------------11-14-17-19-|-
B|---------------------------------|-----6------------------12-------------|-
G|-------------5---------------4---|---4---7---5-9-----8-11----------------|-
D|---6-9-6---7---7---4-7-4---5---7-|-6-------7-----8-9---------------------|-
A|-7-------7-------5-------5-------|---------------------------------------|-
E|---------------------------------|---------------------------------------|-
http://www.guitartabcreator.com
Guitar Tab Creator is intended to store guitar tab created through the tool. It currently does not support in-line text editing. Any text you place in here will be lost. If you need to comment on your tab, please use the "Tab Notes" section located below.