c5 p2

(/) Slide Up  (\) Slide Down  (h) Hammer On  (p) Pull Off  (b) Bend (r) Release (v) Vibrato

E|------------------------12-10-8------------|-
B|---8-12-8----10-12-10-8---------12-10-8----|-
G|-9--------11----------------------------11-|-
D|-------------------------------------------|-
A|-------------------------------------------|-
E|-------------------------------------------|-



E|-----------12-10------------14-12-10------------------------|---
B|------12-9-------13-12-9/10----------13-12-10---------------|---
G|-9-13-----------------------------------------12-11-9-------|---
D|------------------------------------------------------12-11-|---
A|------------------------------------------------------------|---
E|------------------------------------------------------------|---



E|----------------------------------
B|--------------8--------7--------5-
G|----9-----------------------------
D|-12---10-9-12---9-7-10---7----9---
A|---------------------------10-----
E|----------------------------------
http://www.guitartabcreator.com
Guitar Tab Creator is intended to store guitar tab created through the tool. It currently does not support in-line text editing. Any text you place in here will be lost. If you need to comment on your tab, please use the "Tab Notes" section located below.