Blackmore QL

(/) Slide Up  (\) Slide Down  (h) Hammer On  (p) Pull Off  (b) Bend (r) Release (v) Vibrato


E|-10-6---10-6---10-6-|-10-6---10-6---10-6-|-11-6---11-6---11-6-|-11-6---11-6---11-6-
B|------8------8------|------8------8------|------8------8------|------8------8------
G|--------------------|--------------------|--------------------|--------------------
D|--------------------|--------------------|--------------------|--------------------
A|--------------------|--------------------|--------------------|--------------------
E|--------------------|--------------------|--------------------|--------------------



E|-13-8----13-8----13-8-|-13-8----13-8----13-8-|-10-5---10-5---10-5-|-10-5---10-5---10-5-
B|------10------10------|------10------10------|------7------7------|------7------7------
G|----------------------|----------------------|--------------------|--------------------
D|----------------------|----------------------|--------------------|--------------------
A|----------------------|----------------------|--------------------|--------------------
E|----------------------|----------------------|--------------------|--------------------



E|-11-6---11-6---11-6-|-11-6---11-6---11-6-|-11-8---11-8---11-8-|-11-8---11-8---11-8---
B|------8------8------|------8------8------|------8------8------|------8------8--------
G|--------------------|--------------------|--------------------|----------------------
D|--------------------|--------------------|--------------------|----------------------
A|--------------------|--------------------|--------------------|----------------------
E|--------------------|--------------------|--------------------|----------------------



E|-14-10----14-10----14-10-|-15-10----14-10----14-10-|-14-10----14-10----10-|---
B|-------10-------10-------|-------10-------10-------|-------10-------10----|---
G|-------------------------|-------------------------|----------------------|---
D|-------------------------|-------------------------|----------------------|---
A|-------------------------|-------------------------|----------------------|---
E|-------------------------|-------------------------|----------------------|---



E|-15-10----14-10----14-10-|-14-|-10-------11-------|-10----------11-------|-
B|-------10-------10-------|----|----11-------13----|----11----11----13----|-
G|-------------------------|----|-------12-------12-|-------12----------12-|-
D|-------------------------|----|-------------------|----------------------|-
A|-------------------------|----|-------------------|----------------------|-
E|-------------------------|----|-------------------|----------------------|-



E|-10h11p10p8-10p8----8-|----------------------|-------------------|-
B|-----------------11---|-10h11p10p8-10p8----8-|-------------------|-
G|----------------------|-----------------11---|-8h11p8p7-8p7----7-|-
D|----------------------|----------------------|--------------10---|-
A|----------------------|----------------------|-------------------|-
E|----------------------|----------------------|-------------------|-



E|---------------------
B|---------------------
G|---------------------
D|-8h10p8p7-8p7--------
A|--------------9-9h10-
E|---------------------
http://www.guitartabcreator.com
Guitar Tab Creator is intended to store guitar tab created through the tool. It currently does not support in-line text editing. Any text you place in here will be lost. If you need to comment on your tab, please use the "Tab Notes" section located below.