am blues

(/) Slide Up  (\) Slide Down  (h) Hammer On  (p) Pull Off  (b) Bend (r) Release (v) Vibrato


E|-------------------------------------------------|-
B|-------5h8p5-------------------5h8p5-------------|-
G|-5h7h8-------8-7-5h7p5---5h7h8-------8-7-5h7p5---|-
D|-----------------------7-----------------------7-|-
A|-------------------------------------------------|-
E|-------------------------------------------------|-



E|-------------------------|-
B|-----8-----8-----8-----5-|-
G|-7/9---7h9---7h9---5h7---|-
D|-------------------------|-
A|-------------------------|-
E|-------------------------|-
http://www.guitartabcreator.com
Guitar Tab Creator is intended to store guitar tab created through the tool. It currently does not support in-line text editing. Any text you place in here will be lost. If you need to comment on your tab, please use the "Tab Notes" section located below.