Uhu yeah

(/) Slide Up  (\) Slide Down  (h) Hammer On  (p) Pull Off  (b) Bend (r) Release (v) Vibrato
E|--------------------------------------
B|-----------------------------3--3--3--
G|--4--4----0--2--0------------2--2--2--
D|--4--4----0--2--0----2--2----0--0--0--
A|--2--2----2--2--0----2--2----0--0--0--
E|----------3----------0--0-------------



E|--------------------------------------------------------------------
B|--1--1--1--1--10--10--10--10----------------------------------------
G|--3--3--3--3--9---9---9---9-------------0--2--0------------0--2--0--
D|--2--2--2--2--10--10--10--10----2--2----0--2--0----2--2----0--2--0--
A|--3--3--3--3--0---0---0---0-----2--2----2--2--0----2--2----2--2--0--
E|--------------------------------0--0----3----------0--0----3--------



E|-----------------------------------
B|-----------------------------------
G|-----------------------7-----------
D|--2--5--2--8--7--5--7--7-----------
A|--2--5--2--8--7--5--7--5-----------
E|--0--3--0--6--5--3--5--------------



E|--0--0--2--2--3--3--0--0--
B|--1--1--1--1--3--3--1--0--
G|--0--0--2--2--0--0--0--0--
D|--2--2--0--0--x--x--2--2--
A|--3--3--0--0--3--3--2--2--
E|--------------1--1--0--0--



E|------------------------------------------------------------------
B|--1--1--1--1--10--10--10------------------------------------------
G|--3--3--3--3--11--11--11------------------------------------------
D|--2--2--2--2--10--10--10------------------------------------------
A|--3--3--3--3--0---0---0------------2--1------------------2--1-----
E|--------------------------0--0--3--------3----0----0--3--------3--



E|--------------
B|--------------
G|--4--4--4--4--
D|--4--4--4--4--
A|--2--0--------
E|--------3--2--



E|--0--0---0--0--
B|--0--0---0--0--
G|--7--11--4--0--
D|--9--12--5--2--
A|--9--12--5--2--
E|--7--10--3--0--
http://www.guitartabcreator.com
Guitar Tab Creator is intended to store guitar tab created through the tool. It currently does not support in-line text editing. Any text you place in here will be lost. If you need to comment on your tab, please use the "Tab Notes" section located below.