Summer Song

(/) Slide Up  (\) Slide Down  (h) Hammer On  (p) Pull Off  (b) Bend (r) Release (v) Vibrato

E|------------------------------------
B|------------------------------------
G|------------------------------------
D|-----------------9--9---------------
A|----------9--10--------10--9--0--0--
E|--10--10----------------------------



E|----------------------------------------------------------
B|----------------------------------------------------------
G|----------------------------------------------------------
D|-----------------9--9-------------------------------------
A|----------9--10--------10--9--0--0--12--0--12--10--9--10--
E|--10--10--------------------------------------------------



E|--14--14--14--14--14--14--14--14--
B|--15--15--15--15--15--14--14--14--
G|--14--14--14--14--14--14--14--14--
D|----------------------------------
A|----------------------------------
E|----------------------------------



E|--0--0--0--0--
B|--0--2--3--2--
G|--0--2--0--2--
D|--2--2--2--2--
A|--2--0--2--0--
E|--0-----0-----
http://www.guitartabcreator.com
Guitar Tab Creator is intended to store guitar tab created through the tool. It currently does not support in-line text editing. Any text you place in here will be lost. If you need to comment on your tab, please use the "Tab Notes" section located below.