riff

(/) Slide Up  (\) Slide Down  (h) Hammer On  (p) Pull Off  (b) Bend (r) Release (v) Vibrato


E|------------------------------------------------------------------
B|------------------------------------------------------------------
G|--11--11--9---11--11--11--9---11--12--12--11--12--12--12--11--12--
D|--9---9---9---9---9---9---9---9---12--12--12--12--12--12--12--12--
A|--9---9---9---9---9---9---9---9---10--10--10--10--10--10--10--10--
E|--10--10--10--10--10--10--10--10--0---0---0---0---0---0---0---0---



E|----------------------------------------------------
B|--------------------------------------7--7--10--10--
G|--9--9--7--9--9--9--7--9--9--9--7--9--x--x--x---x---
D|--9--9--9--9--9--9--9--9--9--9--9--9--9--9--9---9---
A|--9--9--9--9--9--9--9--9--9--9--9--9--9--9--9---9---
E|--7--7--7--7--7--7--7--7--7--7--7--7--7--7--7---7---
http://www.guitartabcreator.com
Guitar Tab Creator is intended to store guitar tab created through the tool. It currently does not support in-line text editing. Any text you place in here will be lost. If you need to comment on your tab, please use the "Tab Notes" section located below.