Pluto 2 (capo 6e fret)

(/) Slide Up  (\) Slide Down  (h) Hammer On  (p) Pull Off  (b) Bend (r) Release (v) Vibrato
E|--0--4--0--2--0--2--4--4--
B|--2--0--0--0--2--0--0--0--
G|--1--1--1--1--1--1--1--1--
D|--2--2--2--1--2--2--4--4--
A|--0--0--2--2--0--0--2--2--
E|--------0--0--------------



E|--------------------------
B|--2--0--------2--0--4--5--
G|--1--1--1--1--1--1--4--4--
D|--2--2--2--1--2--2--4--4--
A|--0--0--2--2--0--0--2--2--
E|--------0--0--------------



E|--4--0--0--0--4--0--0--0--4--4--0--0--4--0--0--0--
B|--5--0--2--2--5--0--4--2--0--0--4--2--0--0--4--2--
G|--6--1--1--2--6--1--4--4--1--1--4--4--1--1--4--1--
D|--6--1--2--2--6--1--2--2--4--4--2--2--4--4--2--2--
A|--4--2--0--0--4--2--0--0--2--2--0--0--2--2--0--0--
E|-----0-----------0--------------------------------



E|--0--0--0--0--0--0--0--0--
B|--0--0--0--0--0--0--0--0--
G|--1--1--1--1--1--1--6--6--
D|--2--2--2--2--2--2--6--6--
A|--2--2--2--2--2--2--5--5--
E|--0--0--0--0--0--0--0--0--



E|--4--4-----0-----
B|--2--2--4--0-----
G|--2--2--4--1-----
D|--4--4--2--2-----
A|--0--0--2--2-----
E|--------0--0-----
http://www.guitartabcreator.com
Guitar Tab Creator is intended to store guitar tab created through the tool. It currently does not support in-line text editing. Any text you place in here will be lost. If you need to comment on your tab, please use the "Tab Notes" section located below.