Pluto

(/) Slide Up  (\) Slide Down  (h) Hammer On  (p) Pull Off  (b) Bend (r) Release (v) Vibrato

Couplet
E|--------------------------------------------------
B|--4--4--4--4--2--2--2--2--4--4--4--4--6--6--6--6--
G|--3--3--3--3--3--3--3--3--3--3--3--3--6--6--6--6--
D|--4--4--4--4--3--3--3--3--4--4--4--4--6--6--6--6--
A|--2--2--2--2--x--x--x--x--2--2--2--2--4--4--4--4--
E|--------------2--2--2--2--------------------------


Refrein
E|-----------------------------
B|--7--7--2--2--4--4--2--2-----
G|--8--8--3--3--6--6--4--4-----
D|--8--8--3--3--6--6--4--4-----
A|--6--6--x--x--4--4--2--2-----
E|--------2--2-----------------


Bridge
E|------------------------------------------------------
B|--2--2--2--2--4--4--4--4--11--11--11--11--7--7--7--7--
G|--4--4--4--4--6--6--6--6--10--10--10--10--8--8--8--8--
D|--3--3--3--3--4--4--4--4--11--11--11--11--8--8--8--8--
A|--4--4--4--4--6--6--6--6--x---x---x---x---x--x--x--x--
E|--------------------------9---9---9---9---7--7--7--7--



E|------------------------------------------------------
B|--2--2--2--2--7--7--7--7--11--11--11--11--7--7--7--7--
G|--3--3--3--3--8--8--8--8--10--10--10--10--8--8--8--8--
D|--3--3--3--3--8--8--8--8--11--11--11--11--8--8--8--8--
A|--x--x--x--x--6--6--6--6--x---x---x---x---x--x--x--x--
E|--2--2--2--2--------------9---9---9---9---7--7--7--7--
http://www.guitartabcreator.com
Guitar Tab Creator is intended to store guitar tab created through the tool. It currently does not support in-line text editing. Any text you place in here will be lost. If you need to comment on your tab, please use the "Tab Notes" section located below.